Announcement

Collapse
No announcement yet.

Historical, Archival Photographs

Collapse
X
 
  • Filter
  • Time
  • Show
Clear All
new posts

  • #46
    Clark Griffith, NY Highlanders' P, 1904-----------1904----------------------------Clark Griffith, Senators' Mgr., 1912
    ---BB Reference Player----------------------------------------------------------BB Reference Manager

    -----------------------------------------------Giants' P, 1905-05
    Last edited by Bill Burgess; 03-05-2009, 08:16 PM.

    Comment


    • #47
      Addie Joss, Indians' P, 1907-09--------------------------------------------------------------------------------------------------1906---BB Reference-------------------------------1907--------1908, League Park

      ------------------------------------------------------------------------------------------------------------------------------------------------------------------------------------1906-07

      Red Dooin, Phillies' C, 1910-----BB-Reference

      -------------------------------------------------------------------------------------------------------------------------------------------1915
      Last edited by Bill Burgess; 12-28-2011, 10:17 AM.

      Comment


      • #48
        Ed Walsh, White Sox' P, 1911,--- BB-Reference----------------------------------------------1909---------------------------------------1911


        Ed Walsh, White Sox' P, 1904-12------------------------------------------1912-13


        -------------------------------------------------1913-16---------------------------------------------------------------------------------1904-12------------------------1910

        ------------------------1912-16

        Last edited by Bill Burgess; 12-27-2011, 08:05 AM.

        Comment


        • #49
          ----------
          Last edited by Bill Burgess; 03-05-2009, 09:08 PM.

          Comment


          • #50
            Frank Chance, Cubs' 1B, 1910-------------------1909-----------------------------------------1910----BB Reference


            ---------Cubs' 1B, Polo Grounds, 1910-------------------------------------------1910


            Last edited by Bill Burgess; 09-07-2009, 08:25 AM.

            Comment


            • #51
              -----------------------------------------------Some Prominent Players, 1910-1919

              ---------------------------------------------------The Age of TY

              Ty Cobb, Detroit CF, 1912---BB Ref---------------------------------------------------1908-13
              Cobb Thread--Burgess' Cobb webpage---Cobb photos


              -----------1921------------------1925-26---------------1925-26----------------1921-26


              "The heights, which great men reached and kept, were not attained by sudden flight. They, whilst their companions slept, were toiling upwards, in the night."----Henry Wadsworth Longfellow

              Would everyone please consider voting in the polls in Vintage, Classic Threads

              Would everyone please consider rating the following threads?---Historical, Archival Photographs---Ty Cobb Thread---Meet The Sports Writers---Historical Articles---Cobb Consensus
              Last edited by Bill Burgess; 11-04-2012, 01:07 PM.

              Comment


              • #52
                ----------
                Last edited by Bill Burgess; 01-05-2009, 01:14 PM.

                Comment


                • #53
                  --------------------------Ty Cobb, 1927, Philadelphia A's,-------------------------------------------------------------------1928-----BB Reference

                  -----------1921------------------1925-26---------------1925-26----------------1921-26
                  Last edited by Bill Burgess; 11-04-2012, 01:08 PM.

                  Comment


                  • #54
                    ----------------------Ty Cobb, 1918-20, Polo Grounds----------------as a Phil. A's, Shibe Park, 1927

                    Last edited by Bill Burgess; 11-04-2012, 01:08 PM.

                    Comment


                    • #55
                      Ty Cobb, March, 1921, wearing armband in tribute to Ray Chapman---BB Reference

                      -----------1921------------------1925-26---------------1925-26----------------1921-26
                      Last edited by Bill Burgess; 11-04-2012, 01:08 PM.

                      Comment


                      • #56
                        ----------
                        Last edited by Bill Burgess; 01-05-2009, 01:15 PM.

                        Comment


                        • #57

                          Ty Cobb/Joe Jackson, 1913, Cleveland--------------------------------------------------------------------------------------------Tris Speaker/Ty Cobb, 1911
                          Last edited by Bill Burgess; 11-04-2012, 01:09 PM.

                          Comment


                          • #58
                            ----------
                            Last edited by Bill Burgess; 01-05-2009, 01:15 PM.

                            Comment


                            • #59
                              BB Reference--- Walter Johnson Thread/Photos---Walter article 1---Walter article 2

                              Walter Johnson, Senators' P, 1916------------------------------------------------------------1912.


                              bigtrainjm9.gif
                              Last edited by Bill Burgess; 11-04-2012, 09:04 AM.

                              Comment


                              • #60
                                BB-Reference--- Walter Johnson Thread/Photos---Walter article 1---Walter article 2---Walter Johnson video

                                -----------------------1912-15----------------------------------------------------------------------------------------------------------------------------------------------------1916


                                -------------------------------------1916

                                ------------------------------------------May 11, 1924----------------------------------------------------------------------------------------1912-15

                                bigtrainjm9.gif
                                Last edited by Bill Burgess; 11-04-2012, 09:05 AM.

                                Comment

                                Ad Widget

                                Collapse
                                Working...
                                X